Tablaturas - Tumeni Notes, de Steve Morse



----8-10-11-12-8---------8-10-7-------7-8-5-------5-7-3-------
-10---------------10---10--------8---8-------5---5-------3---3--
----------------------9--------------7-----------5-----------4-----
---------------------------------------------------------------------
---------------------------------------------------------------------
---------------------------------------------------------------------
.
-3--5-1-----3-1----5-1-----8-5-------5---------------------------
--------1-1-----1-1-----1-1-----7---7-----------------------------
-----------------------------------8---------------------------------
---------------------------------------------------------------------
---------------------------------------------------------------------
---------------------------------------------------------------------
.
---------8-10-11-12-8---------8-10-7------7-8-5-----5----------
9-10-12---------------10---10--------8--8------6--6-------------
---------------------------9-------------7---------5----------------
---------------------------------------------------------------------
---------------------------------------------------------------------
---------------------------------------------------------------------
.
13-8--------8--12-8----10-8----12-8----13-10-------15-10----
-----10--10---------8-8-----8-8-----8-8-------10-10------------
-------10----------------------------------------------------------
--------------------------------------------------------------------
--------------------------------------------------------------------
--------------------------------------------------------------------
.
------13-10-------16-10--------/17~----------------------------
10-10------10-10-------10-10-----------------------------------
--------------------------------------------------------------------
--------------------------------------------------------------------
--------------------------------------------------------------------
--------------------------------------------------------------------


___________________________________________________________________

http://99e0445.leadlovers.com/como-solar-com-modos-gregos-1

Quer melhorar seus solos?

Se você quer melhorar seus solos e aprender a solar com Modos Gregos, nós recomendamos que você conheça o Como Solar Com Modos Gregos. Este é o único método que ensina como criar solos interessantes com Modos Gregos, sem ter que decorar um monte de escalas.

Caso ainda não conheça, visite e assista aos vídeos gratuitos da série Como Solar Modos Gregos no link abaixo:

Clique AQUI para conhecer o Como Solar Com Modos Gregos

Bons estudos!

GuitarCoast

Nenhum comentário: